ISO-10303-21;
HEADER;
/* Generated by software containing ST-Developer
 * from STEP Tools, Inc. (www.steptools.com) 
 */

FILE_DESCRIPTION(
/* description */ (''),
/* implementation_level */ '2;1');

FILE_NAME(
/* name */ 
'C:\\Work\\Designs\\Montageplatte Hartpapier\\10 INTERNET\\03 STEP\\09
12225180 - Montageplatte MBI 2518xx - Index01.stp',
/* time_stamp */ '2022-09-27T08:16:29+02:00',
/* author */ ('alexander.rose'),
/* organization */ (''),
/* preprocessor_version */ 'ST-DEVELOPER v18.1',
/* originating_system */ 'Autodesk Inventor 2022',
/* authorisation */ '');

FILE_SCHEMA (('AUTOMOTIVE_DESIGN { 1 0 10303 214 3 1 1 }'));
ENDSEC;

DATA;
#10=MECHANICAL_DESIGN_GEOMETRIC_PRESENTATION_REPRESENTATION('',(#13),#426);
#11=SHAPE_REPRESENTATION_RELATIONSHIP('SRR','None',#433,#12);
#12=ADVANCED_BREP_SHAPE_REPRESENTATION('',(#14),#425);
#13=STYLED_ITEM('',(#442),#14);
#14=MANIFOLD_SOLID_BREP('Volumenk\X\F6rper1',#245);
#15=FACE_BOUND('',#56,.T.);
#16=FACE_BOUND('',#57,.T.);
#17=FACE_BOUND('',#58,.T.);
#18=FACE_BOUND('',#59,.T.);
#19=FACE_BOUND('',#60,.T.);
#20=FACE_BOUND('',#61,.T.);
#21=FACE_BOUND('',#63,.T.);
#22=FACE_BOUND('',#64,.T.);
#23=FACE_BOUND('',#65,.T.);
#24=FACE_BOUND('',#66,.T.);
#25=FACE_BOUND('',#67,.T.);
#26=FACE_BOUND('',#68,.T.);
#27=PLANE('',#286);
#28=PLANE('',#287);
#29=PLANE('',#288);
#30=PLANE('',#289);
#31=PLANE('',#290);
#32=PLANE('',#291);
#33=FACE_OUTER_BOUND('',#45,.T.);
#34=FACE_OUTER_BOUND('',#46,.T.);
#35=FACE_OUTER_BOUND('',#47,.T.);
#36=FACE_OUTER_BOUND('',#48,.T.);
#37=FACE_OUTER_BOUND('',#49,.T.);
#38=FACE_OUTER_BOUND('',#50,.T.);
#39=FACE_OUTER_BOUND('',#51,.T.);
#40=FACE_OUTER_BOUND('',#52,.T.);
#41=FACE_OUTER_BOUND('',#53,.T.);
#42=FACE_OUTER_BOUND('',#54,.T.);
#43=FACE_OUTER_BOUND('',#55,.T.);
#44=FACE_OUTER_BOUND('',#62,.T.);
#45=EDGE_LOOP('',(#167,#168,#169,#170));
#46=EDGE_LOOP('',(#171,#172,#173,#174));
#47=EDGE_LOOP('',(#175,#176,#177,#178));
#48=EDGE_LOOP('',(#179,#180,#181,#182));
#49=EDGE_LOOP('',(#183,#184,#185,#186));
#50=EDGE_LOOP('',(#187,#188,#189,#190));
#51=EDGE_LOOP('',(#191,#192,#193,#194));
#52=EDGE_LOOP('',(#195,#196,#197,#198));
#53=EDGE_LOOP('',(#199,#200,#201,#202));
#54=EDGE_LOOP('',(#203,#204,#205,#206));
#55=EDGE_LOOP('',(#207,#208,#209,#210));
#56=EDGE_LOOP('',(#211));
#57=EDGE_LOOP('',(#212));
#58=EDGE_LOOP('',(#213));
#59=EDGE_LOOP('',(#214));
#60=EDGE_LOOP('',(#215));
#61=EDGE_LOOP('',(#216));
#62=EDGE_LOOP('',(#217,#218,#219,#220));
#63=EDGE_LOOP('',(#221));
#64=EDGE_LOOP('',(#222));
#65=EDGE_LOOP('',(#223));
#66=EDGE_LOOP('',(#224));
#67=EDGE_LOOP('',(#225));
#68=EDGE_LOOP('',(#226));
#69=LINE('',#365,#87);
#70=LINE('',#371,#88);
#71=LINE('',#377,#89);
#72=LINE('',#383,#90);
#73=LINE('',#389,#91);
#74=LINE('',#395,#92);
#75=LINE('',#400,#93);
#76=LINE('',#402,#94);
#77=LINE('',#404,#95);
#78=LINE('',#405,#96);
#79=LINE('',#408,#97);
#80=LINE('',#410,#98);
#81=LINE('',#411,#99);
#82=LINE('',#414,#100);
#83=LINE('',#416,#101);
#84=LINE('',#417,#102);
#85=LINE('',#419,#103);
#86=LINE('',#420,#104);
#87=VECTOR('',#298,2.25);
#88=VECTOR('',#305,2.25);
#89=VECTOR('',#312,2.25);
#90=VECTOR('',#319,2.25);
#91=VECTOR('',#326,2.25);
#92=VECTOR('',#333,2.25);
#93=VECTOR('',#338,10.);
#94=VECTOR('',#339,10.);
#95=VECTOR('',#340,10.);
#96=VECTOR('',#341,10.);
#97=VECTOR('',#344,10.);
#98=VECTOR('',#345,10.);
#99=VECTOR('',#346,10.);
#100=VECTOR('',#349,10.);
#101=VECTOR('',#350,10.);
#102=VECTOR('',#351,10.);
#103=VECTOR('',#354,10.);
#104=VECTOR('',#355,10.);
#105=CIRCLE('',#269,2.25);
#106=CIRCLE('',#270,2.25);
#107=CIRCLE('',#272,2.25);
#108=CIRCLE('',#273,2.25);
#109=CIRCLE('',#275,2.25);
#110=CIRCLE('',#276,2.25);
#111=CIRCLE('',#278,2.25);
#112=CIRCLE('',#279,2.25);
#113=CIRCLE('',#281,2.25);
#114=CIRCLE('',#282,2.25);
#115=CIRCLE('',#284,2.25);
#116=CIRCLE('',#285,2.25);
#117=VERTEX_POINT('',#362);
#118=VERTEX_POINT('',#364);
#119=VERTEX_POINT('',#368);
#120=VERTEX_POINT('',#370);
#121=VERTEX_POINT('',#374);
#122=VERTEX_POINT('',#376);
#123=VERTEX_POINT('',#380);
#124=VERTEX_POINT('',#382);
#125=VERTEX_POINT('',#386);
#126=VERTEX_POINT('',#388);
#127=VERTEX_POINT('',#392);
#128=VERTEX_POINT('',#394);
#129=VERTEX_POINT('',#398);
#130=VERTEX_POINT('',#399);
#131=VERTEX_POINT('',#401);
#132=VERTEX_POINT('',#403);
#133=VERTEX_POINT('',#407);
#134=VERTEX_POINT('',#409);
#135=VERTEX_POINT('',#413);
#136=VERTEX_POINT('',#415);
#137=EDGE_CURVE('',#117,#117,#105,.T.);
#138=EDGE_CURVE('',#117,#118,#69,.T.);
#139=EDGE_CURVE('',#118,#118,#106,.T.);
#140=EDGE_CURVE('',#119,#119,#107,.T.);
#141=EDGE_CURVE('',#119,#120,#70,.T.);
#142=EDGE_CURVE('',#120,#120,#108,.T.);
#143=EDGE_CURVE('',#121,#121,#109,.T.);
#144=EDGE_CURVE('',#121,#122,#71,.T.);
#145=EDGE_CURVE('',#122,#122,#110,.T.);
#146=EDGE_CURVE('',#123,#123,#111,.T.);
#147=EDGE_CURVE('',#123,#124,#72,.T.);
#148=EDGE_CURVE('',#124,#124,#112,.T.);
#149=EDGE_CURVE('',#125,#125,#113,.T.);
#150=EDGE_CURVE('',#125,#126,#73,.T.);
#151=EDGE_CURVE('',#126,#126,#114,.T.);
#152=EDGE_CURVE('',#127,#127,#115,.T.);
#153=EDGE_CURVE('',#127,#128,#74,.T.);
#154=EDGE_CURVE('',#128,#128,#116,.T.);
#155=EDGE_CURVE('',#129,#130,#75,.T.);
#156=EDGE_CURVE('',#130,#131,#76,.T.);
#157=EDGE_CURVE('',#132,#131,#77,.T.);
#158=EDGE_CURVE('',#129,#132,#78,.T.);
#159=EDGE_CURVE('',#133,#129,#79,.T.);
#160=EDGE_CURVE('',#134,#132,#80,.T.);
#161=EDGE_CURVE('',#133,#134,#81,.T.);
#162=EDGE_CURVE('',#135,#133,#82,.T.);
#163=EDGE_CURVE('',#136,#134,#83,.T.);
#164=EDGE_CURVE('',#135,#136,#84,.T.);
#165=EDGE_CURVE('',#130,#135,#85,.T.);
#166=EDGE_CURVE('',#131,#136,#86,.T.);
#167=ORIENTED_EDGE('',*,*,#137,.F.);
#168=ORIENTED_EDGE('',*,*,#138,.T.);
#169=ORIENTED_EDGE('',*,*,#139,.F.);
#170=ORIENTED_EDGE('',*,*,#138,.F.);
#171=ORIENTED_EDGE('',*,*,#140,.F.);
#172=ORIENTED_EDGE('',*,*,#141,.T.);
#173=ORIENTED_EDGE('',*,*,#142,.F.);
#174=ORIENTED_EDGE('',*,*,#141,.F.);
#175=ORIENTED_EDGE('',*,*,#143,.F.);
#176=ORIENTED_EDGE('',*,*,#144,.T.);
#177=ORIENTED_EDGE('',*,*,#145,.F.);
#178=ORIENTED_EDGE('',*,*,#144,.F.);
#179=ORIENTED_EDGE('',*,*,#146,.F.);
#180=ORIENTED_EDGE('',*,*,#147,.T.);
#181=ORIENTED_EDGE('',*,*,#148,.F.);
#182=ORIENTED_EDGE('',*,*,#147,.F.);
#183=ORIENTED_EDGE('',*,*,#149,.F.);
#184=ORIENTED_EDGE('',*,*,#150,.T.);
#185=ORIENTED_EDGE('',*,*,#151,.F.);
#186=ORIENTED_EDGE('',*,*,#150,.F.);
#187=ORIENTED_EDGE('',*,*,#152,.F.);
#188=ORIENTED_EDGE('',*,*,#153,.T.);
#189=ORIENTED_EDGE('',*,*,#154,.F.);
#190=ORIENTED_EDGE('',*,*,#153,.F.);
#191=ORIENTED_EDGE('',*,*,#155,.T.);
#192=ORIENTED_EDGE('',*,*,#156,.T.);
#193=ORIENTED_EDGE('',*,*,#157,.F.);
#194=ORIENTED_EDGE('',*,*,#158,.F.);
#195=ORIENTED_EDGE('',*,*,#159,.T.);
#196=ORIENTED_EDGE('',*,*,#158,.T.);
#197=ORIENTED_EDGE('',*,*,#160,.F.);
#198=ORIENTED_EDGE('',*,*,#161,.F.);
#199=ORIENTED_EDGE('',*,*,#162,.T.);
#200=ORIENTED_EDGE('',*,*,#161,.T.);
#201=ORIENTED_EDGE('',*,*,#163,.F.);
#202=ORIENTED_EDGE('',*,*,#164,.F.);
#203=ORIENTED_EDGE('',*,*,#165,.T.);
#204=ORIENTED_EDGE('',*,*,#164,.T.);
#205=ORIENTED_EDGE('',*,*,#166,.F.);
#206=ORIENTED_EDGE('',*,*,#156,.F.);
#207=ORIENTED_EDGE('',*,*,#166,.T.);
#208=ORIENTED_EDGE('',*,*,#163,.T.);
#209=ORIENTED_EDGE('',*,*,#160,.T.);
#210=ORIENTED_EDGE('',*,*,#157,.T.);
#211=ORIENTED_EDGE('',*,*,#137,.T.);
#212=ORIENTED_EDGE('',*,*,#140,.T.);
#213=ORIENTED_EDGE('',*,*,#143,.T.);
#214=ORIENTED_EDGE('',*,*,#146,.T.);
#215=ORIENTED_EDGE('',*,*,#149,.T.);
#216=ORIENTED_EDGE('',*,*,#152,.T.);
#217=ORIENTED_EDGE('',*,*,#165,.F.);
#218=ORIENTED_EDGE('',*,*,#155,.F.);
#219=ORIENTED_EDGE('',*,*,#159,.F.);
#220=ORIENTED_EDGE('',*,*,#162,.F.);
#221=ORIENTED_EDGE('',*,*,#139,.T.);
#222=ORIENTED_EDGE('',*,*,#142,.T.);
#223=ORIENTED_EDGE('',*,*,#145,.T.);
#224=ORIENTED_EDGE('',*,*,#148,.T.);
#225=ORIENTED_EDGE('',*,*,#151,.T.);
#226=ORIENTED_EDGE('',*,*,#154,.T.);
#227=CYLINDRICAL_SURFACE('',#268,2.25);
#228=CYLINDRICAL_SURFACE('',#271,2.25);
#229=CYLINDRICAL_SURFACE('',#274,2.25);
#230=CYLINDRICAL_SURFACE('',#277,2.25);
#231=CYLINDRICAL_SURFACE('',#280,2.25);
#232=CYLINDRICAL_SURFACE('',#283,2.25);
#233=ADVANCED_FACE('',(#33),#227,.F.);
#234=ADVANCED_FACE('',(#34),#228,.F.);
#235=ADVANCED_FACE('',(#35),#229,.F.);
#236=ADVANCED_FACE('',(#36),#230,.F.);
#237=ADVANCED_FACE('',(#37),#231,.F.);
#238=ADVANCED_FACE('',(#38),#232,.F.);
#239=ADVANCED_FACE('',(#39),#27,.T.);
#240=ADVANCED_FACE('',(#40),#28,.T.);
#241=ADVANCED_FACE('',(#41),#29,.T.);
#242=ADVANCED_FACE('',(#42),#30,.T.);
#243=ADVANCED_FACE('',(#43,#15,#16,#17,#18,#19,#20),#31,.T.);
#244=ADVANCED_FACE('',(#44,#21,#22,#23,#24,#25,#26),#32,.F.);
#245=CLOSED_SHELL('',(#233,#234,#235,#236,#237,#238,#239,#240,#241,#242,
#243,#244));
#246=DERIVED_UNIT_ELEMENT(#249,1.);
#247=DERIVED_UNIT_ELEMENT(#428,-3.);
#248=DIMENSIONAL_EXPONENTS(1.,0.,0.,0.,0.,0.,0.);
#249=(
CONVERSION_BASED_UNIT('gram',#251)
MASS_UNIT()
NAMED_UNIT(#248)
);
#250=(
MASS_UNIT()
NAMED_UNIT(*)
SI_UNIT(.KILO.,.GRAM.)
);
#251=MASS_MEASURE_WITH_UNIT(MASS_MEASURE(0.001),#250);
#252=DERIVED_UNIT((#246,#247));
#253=MEASURE_REPRESENTATION_ITEM('density measure',
POSITIVE_RATIO_MEASURE(1.),#252);
#254=PROPERTY_DEFINITION_REPRESENTATION(#259,#256);
#255=PROPERTY_DEFINITION_REPRESENTATION(#260,#257);
#256=REPRESENTATION('material name',(#258),#425);
#257=REPRESENTATION('density',(#253),#425);
#258=DESCRIPTIVE_REPRESENTATION_ITEM('Generisch','Generisch');
#259=PROPERTY_DEFINITION('material property','material name',#435);
#260=PROPERTY_DEFINITION('material property','density of part',#435);
#261=DATE_TIME_ROLE('creation_date');
#262=APPLIED_DATE_AND_TIME_ASSIGNMENT(#263,#261,(#435));
#263=DATE_AND_TIME(#264,#265);
#264=CALENDAR_DATE(2022,12,9);
#265=LOCAL_TIME(0,0,0.,#266);
#266=COORDINATED_UNIVERSAL_TIME_OFFSET(0,0,.BEHIND.);
#267=AXIS2_PLACEMENT_3D('placement',#360,#292,#293);
#268=AXIS2_PLACEMENT_3D('',#361,#294,#295);
#269=AXIS2_PLACEMENT_3D('',#363,#296,#297);
#270=AXIS2_PLACEMENT_3D('',#366,#299,#300);
#271=AXIS2_PLACEMENT_3D('',#367,#301,#302);
#272=AXIS2_PLACEMENT_3D('',#369,#303,#304);
#273=AXIS2_PLACEMENT_3D('',#372,#306,#307);
#274=AXIS2_PLACEMENT_3D('',#373,#308,#309);
#275=AXIS2_PLACEMENT_3D('',#375,#310,#311);
#276=AXIS2_PLACEMENT_3D('',#378,#313,#314);
#277=AXIS2_PLACEMENT_3D('',#379,#315,#316);
#278=AXIS2_PLACEMENT_3D('',#381,#317,#318);
#279=AXIS2_PLACEMENT_3D('',#384,#320,#321);
#280=AXIS2_PLACEMENT_3D('',#385,#322,#323);
#281=AXIS2_PLACEMENT_3D('',#387,#324,#325);
#282=AXIS2_PLACEMENT_3D('',#390,#327,#328);
#283=AXIS2_PLACEMENT_3D('',#391,#329,#330);
#284=AXIS2_PLACEMENT_3D('',#393,#331,#332);
#285=AXIS2_PLACEMENT_3D('',#396,#334,#335);
#286=AXIS2_PLACEMENT_3D('',#397,#336,#337);
#287=AXIS2_PLACEMENT_3D('',#406,#342,#343);
#288=AXIS2_PLACEMENT_3D('',#412,#347,#348);
#289=AXIS2_PLACEMENT_3D('',#418,#352,#353);
#290=AXIS2_PLACEMENT_3D('',#421,#356,#357);
#291=AXIS2_PLACEMENT_3D('',#422,#358,#359);
#292=DIRECTION('axis',(0.,0.,1.));
#293=DIRECTION('refdir',(1.,0.,0.));
#294=DIRECTION('center_axis',(0.,-1.,0.));
#295=DIRECTION('ref_axis',(1.,0.,0.));
#296=DIRECTION('center_axis',(0.,-1.,0.));
#297=DIRECTION('ref_axis',(1.,0.,0.));
#298=DIRECTION('',(0.,-1.,0.));
#299=DIRECTION('center_axis',(0.,1.,0.));
#300=DIRECTION('ref_axis',(1.,0.,0.));
#301=DIRECTION('center_axis',(0.,-1.,0.));
#302=DIRECTION('ref_axis',(1.,0.,0.));
#303=DIRECTION('center_axis',(0.,-1.,0.));
#304=DIRECTION('ref_axis',(1.,0.,0.));
#305=DIRECTION('',(0.,-1.,0.));
#306=DIRECTION('center_axis',(0.,1.,0.));
#307=DIRECTION('ref_axis',(1.,0.,0.));
#308=DIRECTION('center_axis',(0.,-1.,0.));
#309=DIRECTION('ref_axis',(1.,0.,0.));
#310=DIRECTION('center_axis',(0.,-1.,0.));
#311=DIRECTION('ref_axis',(1.,0.,0.));
#312=DIRECTION('',(0.,-1.,0.));
#313=DIRECTION('center_axis',(0.,1.,0.));
#314=DIRECTION('ref_axis',(1.,0.,0.));
#315=DIRECTION('center_axis',(0.,-1.,0.));
#316=DIRECTION('ref_axis',(1.,0.,0.));
#317=DIRECTION('center_axis',(0.,-1.,0.));
#318=DIRECTION('ref_axis',(1.,0.,0.));
#319=DIRECTION('',(0.,-1.,0.));
#320=DIRECTION('center_axis',(0.,1.,0.));
#321=DIRECTION('ref_axis',(1.,0.,0.));
#322=DIRECTION('center_axis',(0.,-1.,0.));
#323=DIRECTION('ref_axis',(1.,0.,0.));
#324=DIRECTION('center_axis',(0.,-1.,0.));
#325=DIRECTION('ref_axis',(1.,0.,0.));
#326=DIRECTION('',(0.,-1.,0.));
#327=DIRECTION('center_axis',(0.,1.,0.));
#328=DIRECTION('ref_axis',(1.,0.,0.));
#329=DIRECTION('center_axis',(0.,-1.,0.));
#330=DIRECTION('ref_axis',(1.,0.,0.));
#331=DIRECTION('center_axis',(0.,-1.,0.));
#332=DIRECTION('ref_axis',(1.,0.,0.));
#333=DIRECTION('',(0.,-1.,0.));
#334=DIRECTION('center_axis',(0.,1.,0.));
#335=DIRECTION('ref_axis',(1.,0.,0.));
#336=DIRECTION('center_axis',(-1.,0.,0.));
#337=DIRECTION('ref_axis',(0.,0.,1.));
#338=DIRECTION('',(0.,0.,1.));
#339=DIRECTION('',(0.,1.,0.));
#340=DIRECTION('',(0.,0.,1.));
#341=DIRECTION('',(0.,1.,0.));
#342=DIRECTION('center_axis',(0.,0.,-1.));
#343=DIRECTION('ref_axis',(-1.,0.,0.));
#344=DIRECTION('',(-1.,0.,0.));
#345=DIRECTION('',(-1.,0.,0.));
#346=DIRECTION('',(0.,1.,0.));
#347=DIRECTION('center_axis',(1.,0.,0.));
#348=DIRECTION('ref_axis',(0.,0.,-1.));
#349=DIRECTION('',(0.,0.,-1.));
#350=DIRECTION('',(0.,0.,-1.));
#351=DIRECTION('',(0.,1.,0.));
#352=DIRECTION('center_axis',(0.,0.,1.));
#353=DIRECTION('ref_axis',(1.,0.,0.));
#354=DIRECTION('',(1.,0.,0.));
#355=DIRECTION('',(1.,0.,0.));
#356=DIRECTION('center_axis',(0.,1.,0.));
#357=DIRECTION('ref_axis',(0.,0.,1.));
#358=DIRECTION('center_axis',(0.,1.,0.));
#359=DIRECTION('ref_axis',(0.,0.,1.));
#360=CARTESIAN_POINT('',(0.,0.,0.));
#361=CARTESIAN_POINT('Origin',(0.,2.5,-93.));
#362=CARTESIAN_POINT('',(-2.25,2.5,-93.));
#363=CARTESIAN_POINT('Origin',(0.,2.5,-93.));
#364=CARTESIAN_POINT('',(-2.25,0.,-93.));
#365=CARTESIAN_POINT('',(-2.25,2.5,-93.));
#366=CARTESIAN_POINT('Origin',(0.,0.,-93.));
#367=CARTESIAN_POINT('Origin',(59.,2.5,60.));
#368=CARTESIAN_POINT('',(56.75,2.5,60.));
#369=CARTESIAN_POINT('Origin',(59.,2.5,60.));
#370=CARTESIAN_POINT('',(56.75,0.,60.));
#371=CARTESIAN_POINT('',(56.75,2.5,60.));
#372=CARTESIAN_POINT('Origin',(59.,0.,60.));
#373=CARTESIAN_POINT('Origin',(59.,2.5,-60.));
#374=CARTESIAN_POINT('',(56.75,2.5,-60.));
#375=CARTESIAN_POINT('Origin',(59.,2.5,-60.));
#376=CARTESIAN_POINT('',(56.75,0.,-60.));
#377=CARTESIAN_POINT('',(56.75,2.5,-60.));
#378=CARTESIAN_POINT('Origin',(59.,0.,-60.));
#379=CARTESIAN_POINT('Origin',(0.,2.5,93.));
#380=CARTESIAN_POINT('',(-2.25,2.5,93.));
#381=CARTESIAN_POINT('Origin',(0.,2.5,93.));
#382=CARTESIAN_POINT('',(-2.25,0.,93.));
#383=CARTESIAN_POINT('',(-2.25,2.5,93.));
#384=CARTESIAN_POINT('Origin',(0.,0.,93.));
#385=CARTESIAN_POINT('Origin',(-59.,2.5,60.));
#386=CARTESIAN_POINT('',(-61.25,2.5,60.));
#387=CARTESIAN_POINT('Origin',(-59.,2.5,60.));
#388=CARTESIAN_POINT('',(-61.25,0.,60.));
#389=CARTESIAN_POINT('',(-61.25,2.5,60.));
#390=CARTESIAN_POINT('Origin',(-59.,0.,60.));
#391=CARTESIAN_POINT('Origin',(-59.,2.5,-60.));
#392=CARTESIAN_POINT('',(-61.25,2.5,-60.));
#393=CARTESIAN_POINT('Origin',(-59.,2.5,-60.));
#394=CARTESIAN_POINT('',(-61.25,0.,-60.));
#395=CARTESIAN_POINT('',(-61.25,2.5,-60.));
#396=CARTESIAN_POINT('Origin',(-59.,0.,-60.));
#397=CARTESIAN_POINT('Origin',(-75.,0.,-110.));
#398=CARTESIAN_POINT('',(-75.,0.,-110.));
#399=CARTESIAN_POINT('',(-75.,0.,110.));
#400=CARTESIAN_POINT('',(-75.,0.,-110.));
#401=CARTESIAN_POINT('',(-75.,2.5,110.));
#402=CARTESIAN_POINT('',(-75.,0.,110.));
#403=CARTESIAN_POINT('',(-75.,2.5,-110.));
#404=CARTESIAN_POINT('',(-75.,2.5,-110.));
#405=CARTESIAN_POINT('',(-75.,0.,-110.));
#406=CARTESIAN_POINT('Origin',(75.,0.,-110.));
#407=CARTESIAN_POINT('',(75.,0.,-110.));
#408=CARTESIAN_POINT('',(75.,0.,-110.));
#409=CARTESIAN_POINT('',(75.,2.5,-110.));
#410=CARTESIAN_POINT('',(75.,2.5,-110.));
#411=CARTESIAN_POINT('',(75.,0.,-110.));
#412=CARTESIAN_POINT('Origin',(75.,0.,110.));
#413=CARTESIAN_POINT('',(75.,0.,110.));
#414=CARTESIAN_POINT('',(75.,0.,110.));
#415=CARTESIAN_POINT('',(75.,2.5,110.));
#416=CARTESIAN_POINT('',(75.,2.5,110.));
#417=CARTESIAN_POINT('',(75.,0.,110.));
#418=CARTESIAN_POINT('Origin',(-75.,0.,110.));
#419=CARTESIAN_POINT('',(-75.,0.,110.));
#420=CARTESIAN_POINT('',(-75.,2.5,110.));
#421=CARTESIAN_POINT('Origin',(0.,2.5,0.));
#422=CARTESIAN_POINT('Origin',(0.,0.,0.));
#423=UNCERTAINTY_MEASURE_WITH_UNIT(LENGTH_MEASURE(0.01),#427,
'DISTANCE_ACCURACY_VALUE',
'Maximum model space distance between geometric entities at asserted c
onnectivities');
#424=UNCERTAINTY_MEASURE_WITH_UNIT(LENGTH_MEASURE(0.01),#427,
'DISTANCE_ACCURACY_VALUE',
'Maximum model space distance between geometric entities at asserted c
onnectivities');
#425=(
GEOMETRIC_REPRESENTATION_CONTEXT(3)
GLOBAL_UNCERTAINTY_ASSIGNED_CONTEXT((#423))
GLOBAL_UNIT_ASSIGNED_CONTEXT((#427,#429,#430))
REPRESENTATION_CONTEXT('','3D')
);
#426=(
GEOMETRIC_REPRESENTATION_CONTEXT(3)
GLOBAL_UNCERTAINTY_ASSIGNED_CONTEXT((#424))
GLOBAL_UNIT_ASSIGNED_CONTEXT((#427,#429,#430))
REPRESENTATION_CONTEXT('','3D')
);
#427=(
LENGTH_UNIT()
NAMED_UNIT(*)
SI_UNIT(.MILLI.,.METRE.)
);
#428=(
LENGTH_UNIT()
NAMED_UNIT(*)
SI_UNIT(.CENTI.,.METRE.)
);
#429=(
NAMED_UNIT(*)
PLANE_ANGLE_UNIT()
SI_UNIT($,.RADIAN.)
);
#430=(
NAMED_UNIT(*)
SI_UNIT($,.STERADIAN.)
SOLID_ANGLE_UNIT()
);
#431=SHAPE_DEFINITION_REPRESENTATION(#432,#433);
#432=PRODUCT_DEFINITION_SHAPE('',$,#435);
#433=SHAPE_REPRESENTATION('',(#267),#425);
#434=PRODUCT_DEFINITION_CONTEXT('part definition',#439,'design');
#435=PRODUCT_DEFINITION(
'0912225180 - Montageplatte MBI 2518xx - Index01',
'0912225180 - Montageplatte MBI 2518xx - Index01',#436,#434);
#436=PRODUCT_DEFINITION_FORMATION('',$,#441);
#437=PRODUCT_RELATED_PRODUCT_CATEGORY(
'0912225180 - Montageplatte MBI 2518xx - Index01',
'0912225180 - Montageplatte MBI 2518xx - Index01',(#441));
#438=APPLICATION_PROTOCOL_DEFINITION('international standard',
'automotive_design',2009,#439);
#439=APPLICATION_CONTEXT(
'Core Data for Automotive Mechanical Design Process');
#440=PRODUCT_CONTEXT('part definition',#439,'mechanical');
#441=PRODUCT('0912225180 - Montageplatte MBI 2518xx - Index01',
'0912225180 - Montageplatte MBI 2518xx - Index01',$,(#440));
#442=PRESENTATION_STYLE_ASSIGNMENT((#443));
#443=SURFACE_STYLE_USAGE(.BOTH.,#446);
#444=SURFACE_STYLE_RENDERING_WITH_PROPERTIES($,#450,(#445));
#445=SURFACE_STYLE_TRANSPARENT(0.);
#446=SURFACE_SIDE_STYLE('',(#447,#444));
#447=SURFACE_STYLE_FILL_AREA(#448);
#448=FILL_AREA_STYLE('',(#449));
#449=FILL_AREA_STYLE_COLOUR('',#450);
#450=COLOUR_RGB('',0.749019607843137,0.749019607843137,0.749019607843137);
ENDSEC;
END-ISO-10303-21;
